Guitar tabs of the new songs

THE place for your Sisters-related comments, questions and snippets of Sisters information. For those who do not know, The Sisters of Mercy are a rock'n'roll band. And a pop band. And an industrial groove machine. Or so they say. They make records. Lots of records, apparently. But not in your galaxy. They play concerts. Lots of concerts, actually. But you still cannot see them. So what's it all about, Alfie? This is one of the few tightly-moderated forums on Heartland, so please keep on-topic. All off-topic posts will either be moved or deleted. Chairman Bux is the editor and the editor's decision is final. Danke.
User avatar
Husek
Utterly Bastard Groovy Amphetamine Filth
Posts: 784
Joined: 02 May 2006, 05:03
Location: Montreal
Contact:

I Will Call You:

Code: Select all

E |----------------|----------------|----|----||
B |--8--6h-8--3----|--4--3--1--3----|----|----||
G |----------------|----------------|----|----||
D |----------------|----------------|----|----||
A |----------------|----------------|----|----||
E |----------------|----------------|----|----||
Project Personal Dok
Hardware: 100% (Single Hackintosh)
AU: 90%
Software: 90%
The Final Floorshow - My Own Sisters T-Shirt Shop
majorsixth
Road Kill
Posts: 84
Joined: 06 Mar 2019, 05:46

I think IWCY's kind of droning on the open G string as well. Isn't it such a fun song ;D

Here's But Genevieve. Think I got it pretty much right this time!

Code: Select all

Intro
  Bm                           A                            G                            Em
E |---------------|------------|---------------|------------|-------------5-|------------|-5------------|-------------|
B |--------7----7-|------------|--------7----8-|------------|--------7------|------------|------8----7--|-------------|
G |-4--4-4----4---|---4-6---7--|-4--4-4----4---|---4-6---7--|-4--4-4----4---|---4-6---7--|----4----4----|--4--4-6--7--|
D |---------------|------------|---------------|------------|---------------|------------|--------------|-------------|
A |---------------|------------|---------------|------------|---------------|------------|--------------|-------------|
E |---------------|------------|---------------|------------|---------------|------------|--------------|-------------|

Code: Select all

Verse
  Bm                           G
E |--------------|-------------|-------------|---------|
B |--------------|-------------|-------------|---------|
G |----2--2----2-|---2--2----2-|------2----2~|---------|
D |----------4---|---------4---|---4-----4---|---------|
A |-2------------|-------------|-------------|---------|
E |--------------|-------------|-------------|---------|

Code: Select all

Chorus
  Em                        G
E |------------|------------|------------|------------|
B |-5-------5--|------5-----|-3-------3--|------2--3--|
G |-----4------|--4------4--|-----4------|--4---------|
D |------------|------------|------------|------------|
A |------------|------------|------------|------------|
E |------------|------------|------------|------------|
User avatar
Husek
Utterly Bastard Groovy Amphetamine Filth
Posts: 784
Joined: 02 May 2006, 05:03
Location: Montreal
Contact:

majorsixth wrote:I think IWCY's kind of droning on the open G string as well. Isn't it such a fun song ;D

Here's But Genevieve. Think I got it pretty much right this time!

Code: Select all

Intro
  Bm                           A                            G                            Em
E |---------------|------------|---------------|------------|-------------5-|------------|-5------------|-------------|
B |--------7----7-|------------|--------7----8-|------------|--------7------|------------|------8----7--|-------------|
G |-4--4-4----4---|---4-6---7--|-4--4-4----4---|---4-6---7--|-4--4-4----4---|---4-6---7--|----4----4----|--4--4-6--7--|
D |---------------|------------|---------------|------------|---------------|------------|--------------|-------------|
A |---------------|------------|---------------|------------|---------------|------------|--------------|-------------|
E |---------------|------------|---------------|------------|---------------|------------|--------------|-------------|

Code: Select all

Verse
  Bm                           G
E |--------------|-------------|-------------|---------|
B |--------------|-------------|-------------|---------|
G |----2--2----2-|---2--2----2-|------2----2~|---------|
D |----------4---|---------4---|---4-----4---|---------|
A |-2------------|-------------|-------------|---------|
E |--------------|-------------|-------------|---------|

Code: Select all

Chorus
  Em                        G
E |------------|------------|------------|------------|
B |-5-------5--|------5-----|-3-------3--|------2--3--|
G |-----4------|--4------4--|-----4------|--4---------|
D |------------|------------|------------|------------|
A |------------|------------|------------|------------|
E |------------|------------|------------|------------|
:notworthy: I'm gonna give it a shot tonight, and also revisit IWCY too.
Btw, check your inbox mate :lol:
Project Personal Dok
Hardware: 100% (Single Hackintosh)
AU: 90%
Software: 90%
The Final Floorshow - My Own Sisters T-Shirt Shop
rkari
Road Kill
Posts: 1
Joined: 15 Apr 2008, 13:47
Location: Hull

Husek wrote:
25 Feb 2019, 22:08

Do you know if they also offer midi files for some of those backtracks? Rain From Heaven sounds fantastic, and I'd like to run my own VSTs on top of it.
I did these a few years ago:

https://we.tl/t-3jbOR3Yb07
User avatar
Husek
Utterly Bastard Groovy Amphetamine Filth
Posts: 784
Joined: 02 May 2006, 05:03
Location: Montreal
Contact:

rkari wrote:
01 Jan 2021, 21:55
Husek wrote:
25 Feb 2019, 22:08

Do you know if they also offer midi files for some of those backtracks? Rain From Heaven sounds fantastic, and I'd like to run my own VSTs on top of it.
I did these a few years ago:

https://we.tl/t-3jbOR3Yb07
Amazing! Really appreciate it! :notworthy:
I'm such a sucker for Rain From heaven and Colours drum tracks
Project Personal Dok
Hardware: 100% (Single Hackintosh)
AU: 90%
Software: 90%
The Final Floorshow - My Own Sisters T-Shirt Shop
Post Reply